ISO-10303-21;
HEADER;
/* Generated by software containing ST-Developer
 * from STEP Tools, Inc. (www.steptools.com) 
 */

FILE_DESCRIPTION(
/* description */ (''),
/* implementation_level */ '2;1');

FILE_NAME(
/* name */ 'C:/Users/dshur/OneDrive/Desktop/ABIZO BODY 2.step',
/* time_stamp */ '2020-08-09T03:11:49+03:00',
/* author */ (''),
/* organization */ (''),
/* preprocessor_version */ 'ST-DEVELOPER v18',
/* originating_system */ 'Autodesk Translation Framework v8.12.0.6',
/* authorisation */ '');

FILE_SCHEMA (('AUTOMOTIVE_DESIGN { 1 0 10303 214 3 1 1 }'));
ENDSEC;

DATA;
#10=MECHANICAL_DESIGN_GEOMETRIC_PRESENTATION_REPRESENTATION('',(#13),#218);
#11=SHAPE_REPRESENTATION_RELATIONSHIP('SRR','None',#225,#12);
#12=ADVANCED_BREP_SHAPE_REPRESENTATION('',(#14),#217);
#13=STYLED_ITEM('',(#234),#14);
#14=MANIFOLD_SOLID_BREP('dome the head',#87);
#15=FACE_BOUND('',#29,.T.);
#16=FACE_BOUND('',#32,.T.);
#17=PLANE('',#108);
#18=PLANE('',#112);
#19=(
BOUNDED_SURFACE()
B_SPLINE_SURFACE(2,2,((#147,#148,#149,#150,#151,#152,#153,#154,#155),(#156,
#157,#158,#159,#160,#161,#162,#163,#164),(#165,#166,#167,#168,#169,#170,
#171,#172,#173)),.UNSPECIFIED.,.F.,.T.,.F.)
B_SPLINE_SURFACE_WITH_KNOTS((3,3),(3,2,2,2,3),(1.17600520709513,1.5707963267949),
(-3.14159265358979,-1.5707963267949,0.,1.5707963267949,3.14159265358979),
 .UNSPECIFIED.)
GEOMETRIC_REPRESENTATION_ITEM()
RATIONAL_B_SPLINE_SURFACE(((1.,0.707106781186548,1.,0.707106781186548,1.,
0.707106781186548,1.,0.707106781186548,1.),(0.980580675690938,0.693375245281549,
0.980580675690938,0.693375245281549,0.980580675690938,0.693375245281549,
0.980580675690938,0.693375245281549,0.980580675690938),(1.,0.707106781186548,
1.,0.707106781186548,1.,0.707106781186548,1.,0.707106781186548,1.)))
REPRESENTATION_ITEM('')
SURFACE()
);
#20=(
BOUNDED_SURFACE()
B_SPLINE_SURFACE(2,2,((#182,#183,#184,#185,#186,#187,#188,#189,#190),(#191,
#192,#193,#194,#195,#196,#197,#198,#199),(#200,#201,#202,#203,#204,#205,
#206,#207,#208)),.UNSPECIFIED.,.F.,.T.,.F.)
B_SPLINE_SURFACE_WITH_KNOTS((3,3),(3,2,2,2,3),(-1.49463431655938E-16,1.5707963267949),
(-3.14159265358979,-1.5707963267949,0.,1.5707963267949,3.14159265358979),
 .UNSPECIFIED.)
GEOMETRIC_REPRESENTATION_ITEM()
RATIONAL_B_SPLINE_SURFACE(((1.,0.707106781186548,1.,0.707106781186548,1.,
0.707106781186548,1.,0.707106781186548,1.),(0.707106781186547,0.499999999999999,
0.707106781186547,0.499999999999999,0.707106781186547,0.499999999999999,
0.707106781186547,0.499999999999999,0.707106781186547),(1.,0.707106781186548,
1.,0.707106781186548,1.,0.707106781186548,1.,0.707106781186548,1.)))
REPRESENTATION_ITEM('')
SURFACE()
);
#21=FACE_OUTER_BOUND('',#26,.T.);
#22=FACE_OUTER_BOUND('',#27,.T.);
#23=FACE_OUTER_BOUND('',#28,.T.);
#24=FACE_OUTER_BOUND('',#30,.T.);
#25=FACE_OUTER_BOUND('',#31,.T.);
#26=EDGE_LOOP('',(#61,#62,#63,#64));
#27=EDGE_LOOP('',(#65,#66,#67,#68,#69));
#28=EDGE_LOOP('',(#70));
#29=EDGE_LOOP('',(#71));
#30=EDGE_LOOP('',(#72,#73,#74,#75,#76,#77));
#31=EDGE_LOOP('',(#78,#79));
#32=EDGE_LOOP('',(#80));
#33=LINE('',#145,#34);
#34=VECTOR('',#119,23.);
#35=CIRCLE('',#102,23.);
#36=CIRCLE('',#103,23.);
#37=CIRCLE('',#104,271.65);
#38=CIRCLE('',#105,325.);
#39=CIRCLE('',#106,396.65);
#40=CIRCLE('',#107,396.65);
#41=CIRCLE('',#109,71.6500000000002);
#42=CIRCLE('',#110,325.);
#43=CIRCLE('',#111,71.6500000000002);
#44=VERTEX_POINT('',#142);
#45=VERTEX_POINT('',#144);
#46=VERTEX_POINT('',#174);
#47=VERTEX_POINT('',#176);
#48=VERTEX_POINT('',#178);
#49=VERTEX_POINT('',#209);
#50=VERTEX_POINT('',#210);
#51=EDGE_CURVE('',#44,#44,#35,.T.);
#52=EDGE_CURVE('',#44,#45,#33,.T.);
#53=EDGE_CURVE('',#45,#45,#36,.T.);
#54=EDGE_CURVE('',#46,#46,#37,.T.);
#55=EDGE_CURVE('',#46,#47,#38,.T.);
#56=EDGE_CURVE('',#48,#47,#39,.T.);
#57=EDGE_CURVE('',#47,#48,#40,.T.);
#58=EDGE_CURVE('',#49,#50,#41,.T.);
#59=EDGE_CURVE('',#50,#47,#42,.T.);
#60=EDGE_CURVE('',#50,#49,#43,.T.);
#61=ORIENTED_EDGE('',*,*,#51,.F.);
#62=ORIENTED_EDGE('',*,*,#52,.T.);
#63=ORIENTED_EDGE('',*,*,#53,.F.);
#64=ORIENTED_EDGE('',*,*,#52,.F.);
#65=ORIENTED_EDGE('',*,*,#54,.T.);
#66=ORIENTED_EDGE('',*,*,#55,.T.);
#67=ORIENTED_EDGE('',*,*,#56,.F.);
#68=ORIENTED_EDGE('',*,*,#57,.F.);
#69=ORIENTED_EDGE('',*,*,#55,.F.);
#70=ORIENTED_EDGE('',*,*,#54,.F.);
#71=ORIENTED_EDGE('',*,*,#51,.T.);
#72=ORIENTED_EDGE('',*,*,#58,.T.);
#73=ORIENTED_EDGE('',*,*,#59,.T.);
#74=ORIENTED_EDGE('',*,*,#57,.T.);
#75=ORIENTED_EDGE('',*,*,#56,.T.);
#76=ORIENTED_EDGE('',*,*,#59,.F.);
#77=ORIENTED_EDGE('',*,*,#60,.T.);
#78=ORIENTED_EDGE('',*,*,#58,.F.);
#79=ORIENTED_EDGE('',*,*,#60,.F.);
#80=ORIENTED_EDGE('',*,*,#53,.T.);
#81=CYLINDRICAL_SURFACE('',#101,23.);
#82=ADVANCED_FACE('',(#21),#81,.F.);
#83=ADVANCED_FACE('',(#22),#19,.T.);
#84=ADVANCED_FACE('',(#23,#15),#17,.F.);
#85=ADVANCED_FACE('',(#24),#20,.F.);
#86=ADVANCED_FACE('',(#25,#16),#18,.T.);
#87=CLOSED_SHELL('',(#82,#83,#84,#85,#86));
#88=DERIVED_UNIT_ELEMENT(#90,1.);
#89=DERIVED_UNIT_ELEMENT(#220,3.);
#90=(
MASS_UNIT()
NAMED_UNIT(*)
SI_UNIT(.KILO.,.GRAM.)
);
#91=DERIVED_UNIT((#88,#89));
#92=MEASURE_REPRESENTATION_ITEM('density measure',
POSITIVE_RATIO_MEASURE(7850.),#91);
#93=PROPERTY_DEFINITION_REPRESENTATION(#98,#95);
#94=PROPERTY_DEFINITION_REPRESENTATION(#99,#96);
#95=REPRESENTATION('material name',(#97),#217);
#96=REPRESENTATION('density',(#92),#217);
#97=DESCRIPTIVE_REPRESENTATION_ITEM('Steel','Steel');
#98=PROPERTY_DEFINITION('material property','material name',#227);
#99=PROPERTY_DEFINITION('material property','density of part',#227);
#100=AXIS2_PLACEMENT_3D('placement',#140,#113,#114);
#101=AXIS2_PLACEMENT_3D('',#141,#115,#116);
#102=AXIS2_PLACEMENT_3D('',#143,#117,#118);
#103=AXIS2_PLACEMENT_3D('',#146,#120,#121);
#104=AXIS2_PLACEMENT_3D('',#175,#122,#123);
#105=AXIS2_PLACEMENT_3D('',#177,#124,#125);
#106=AXIS2_PLACEMENT_3D('',#179,#126,#127);
#107=AXIS2_PLACEMENT_3D('',#180,#128,#129);
#108=AXIS2_PLACEMENT_3D('',#181,#130,#131);
#109=AXIS2_PLACEMENT_3D('',#211,#132,#133);
#110=AXIS2_PLACEMENT_3D('',#212,#134,#135);
#111=AXIS2_PLACEMENT_3D('',#213,#136,#137);
#112=AXIS2_PLACEMENT_3D('',#214,#138,#139);
#113=DIRECTION('axis',(0.,0.,1.));
#114=DIRECTION('refdir',(1.,0.,0.));
#115=DIRECTION('center_axis',(0.,1.22464679914735E-16,1.));
#116=DIRECTION('ref_axis',(-1.,0.,0.));
#117=DIRECTION('center_axis',(0.,1.22464679914735E-16,1.));
#118=DIRECTION('ref_axis',(-1.,0.,0.));
#119=DIRECTION('',(0.,1.22464679914735E-16,1.));
#120=DIRECTION('center_axis',(0.,-1.22464679914735E-16,-1.));
#121=DIRECTION('ref_axis',(-1.,0.,0.));
#122=DIRECTION('center_axis',(0.,1.22464679914735E-16,1.));
#123=DIRECTION('ref_axis',(-1.,0.,0.));
#124=DIRECTION('center_axis',(2.38177402416861E-16,-1.,1.22464679914735E-16));
#125=DIRECTION('ref_axis',(1.,2.38177402416861E-16,0.));
#126=DIRECTION('center_axis',(0.,1.22464679914735E-16,1.));
#127=DIRECTION('ref_axis',(1.,0.,0.));
#128=DIRECTION('center_axis',(0.,1.22464679914735E-16,1.));
#129=DIRECTION('ref_axis',(1.,0.,0.));
#130=DIRECTION('center_axis',(0.,1.22464679914735E-16,1.));
#131=DIRECTION('ref_axis',(1.,0.,0.));
#132=DIRECTION('center_axis',(0.,-1.22464679914735E-16,-1.));
#133=DIRECTION('ref_axis',(1.,0.,0.));
#134=DIRECTION('center_axis',(0.,1.,-1.22464679914735E-16));
#135=DIRECTION('ref_axis',(1.,0.,0.));
#136=DIRECTION('center_axis',(0.,-1.22464679914735E-16,-1.));
#137=DIRECTION('ref_axis',(1.,0.,0.));
#138=DIRECTION('center_axis',(0.,1.22464679914735E-16,1.));
#139=DIRECTION('ref_axis',(1.,0.,0.));
#140=CARTESIAN_POINT('',(0.,0.,0.));
#141=CARTESIAN_POINT('Origin',(1241.24451634693,709.374029426255,-700.));
#142=CARTESIAN_POINT('',(1264.24451634693,709.374029426255,-700.));
#143=CARTESIAN_POINT('Origin',(1241.24451634693,709.374029426255,-700.));
#144=CARTESIAN_POINT('',(1264.24451634693,709.374029426255,-350.));
#145=CARTESIAN_POINT('',(1264.24451634693,709.374029426255,-700.));
#146=CARTESIAN_POINT('Origin',(1241.24451634693,709.374029426255,-350.));
#147=CARTESIAN_POINT('Ctrl Pts',(1637.89451634693,709.374029426255,-675.));
#148=CARTESIAN_POINT('Ctrl Pts',(1637.89451634693,1106.02402942626,-675.));
#149=CARTESIAN_POINT('Ctrl Pts',(1241.24451634693,1106.02402942626,-675.));
#150=CARTESIAN_POINT('Ctrl Pts',(844.594516346931,1106.02402942626,-675.));
#151=CARTESIAN_POINT('Ctrl Pts',(844.594516346931,709.374029426255,-675.));
#152=CARTESIAN_POINT('Ctrl Pts',(844.594516346931,312.724029426255,-675.));
#153=CARTESIAN_POINT('Ctrl Pts',(1241.24451634693,312.724029426255,-675.));
#154=CARTESIAN_POINT('Ctrl Pts',(1637.89451634693,312.724029426255,-675.));
#155=CARTESIAN_POINT('Ctrl Pts',(1637.89451634693,709.374029426255,-675.));
#156=CARTESIAN_POINT('Ctrl Pts',(1577.89451634693,709.374029426255,-700.));
#157=CARTESIAN_POINT('Ctrl Pts',(1577.89451634693,1046.02402942626,-700.));
#158=CARTESIAN_POINT('Ctrl Pts',(1241.24451634693,1046.02402942626,-700.));
#159=CARTESIAN_POINT('Ctrl Pts',(904.594516346931,1046.02402942626,-700.));
#160=CARTESIAN_POINT('Ctrl Pts',(904.594516346931,709.374029426255,-700.));
#161=CARTESIAN_POINT('Ctrl Pts',(904.594516346931,372.724029426256,-700.));
#162=CARTESIAN_POINT('Ctrl Pts',(1241.24451634693,372.724029426256,-700.));
#163=CARTESIAN_POINT('Ctrl Pts',(1577.89451634693,372.724029426256,-700.));
#164=CARTESIAN_POINT('Ctrl Pts',(1577.89451634693,709.374029426255,-700.));
#165=CARTESIAN_POINT('Ctrl Pts',(1512.89451634693,709.374029426255,-700.));
#166=CARTESIAN_POINT('Ctrl Pts',(1512.89451634693,981.024029426255,-700.));
#167=CARTESIAN_POINT('Ctrl Pts',(1241.24451634693,981.024029426255,-700.));
#168=CARTESIAN_POINT('Ctrl Pts',(969.594516346931,981.024029426255,-700.));
#169=CARTESIAN_POINT('Ctrl Pts',(969.594516346931,709.374029426255,-700.));
#170=CARTESIAN_POINT('Ctrl Pts',(969.594516346931,437.724029426256,-700.));
#171=CARTESIAN_POINT('Ctrl Pts',(1241.24451634693,437.724029426256,-700.));
#172=CARTESIAN_POINT('Ctrl Pts',(1512.89451634693,437.724029426256,-700.));
#173=CARTESIAN_POINT('Ctrl Pts',(1512.89451634693,709.374029426255,-700.));
#174=CARTESIAN_POINT('',(1512.89451634693,709.374029426255,-700.));
#175=CARTESIAN_POINT('Origin',(1241.24451634693,709.374029426255,-700.));
#176=CARTESIAN_POINT('',(1637.89451634693,709.374029426255,-675.));
#177=CARTESIAN_POINT('Origin',(1512.89451634693,709.374029426255,-375.));
#178=CARTESIAN_POINT('',(844.594516346931,709.374029426255,-675.));
#179=CARTESIAN_POINT('Origin',(1241.24451634693,709.374029426255,-675.));
#180=CARTESIAN_POINT('Origin',(1241.24451634693,709.374029426255,-675.));
#181=CARTESIAN_POINT('Origin',(677.766918285966,709.374029426255,-700.));
#182=CARTESIAN_POINT('Ctrl Pts',(1637.89451634693,709.374029426255,-675.));
#183=CARTESIAN_POINT('Ctrl Pts',(1637.89451634693,1106.02402942626,-675.));
#184=CARTESIAN_POINT('Ctrl Pts',(1241.24451634693,1106.02402942626,-675.));
#185=CARTESIAN_POINT('Ctrl Pts',(844.594516346931,1106.02402942626,-675.));
#186=CARTESIAN_POINT('Ctrl Pts',(844.594516346931,709.374029426255,-675.));
#187=CARTESIAN_POINT('Ctrl Pts',(844.594516346931,312.724029426255,-675.));
#188=CARTESIAN_POINT('Ctrl Pts',(1241.24451634693,312.724029426255,-675.));
#189=CARTESIAN_POINT('Ctrl Pts',(1637.89451634693,312.724029426255,-675.));
#190=CARTESIAN_POINT('Ctrl Pts',(1637.89451634693,709.374029426255,-675.));
#191=CARTESIAN_POINT('Ctrl Pts',(1637.89451634693,709.374029426255,-350.));
#192=CARTESIAN_POINT('Ctrl Pts',(1637.89451634693,1106.02402942626,-350.));
#193=CARTESIAN_POINT('Ctrl Pts',(1241.24451634693,1106.02402942626,-350.));
#194=CARTESIAN_POINT('Ctrl Pts',(844.594516346931,1106.02402942626,-350.));
#195=CARTESIAN_POINT('Ctrl Pts',(844.594516346931,709.374029426255,-350.));
#196=CARTESIAN_POINT('Ctrl Pts',(844.594516346931,312.724029426255,-350.));
#197=CARTESIAN_POINT('Ctrl Pts',(1241.24451634693,312.724029426255,-350.));
#198=CARTESIAN_POINT('Ctrl Pts',(1637.89451634693,312.724029426255,-350.));
#199=CARTESIAN_POINT('Ctrl Pts',(1637.89451634693,709.374029426255,-350.));
#200=CARTESIAN_POINT('Ctrl Pts',(1312.89451634693,709.374029426255,-350.));
#201=CARTESIAN_POINT('Ctrl Pts',(1312.89451634693,781.024029426255,-350.));
#202=CARTESIAN_POINT('Ctrl Pts',(1241.24451634693,781.024029426255,-350.));
#203=CARTESIAN_POINT('Ctrl Pts',(1169.59451634693,781.024029426255,-350.));
#204=CARTESIAN_POINT('Ctrl Pts',(1169.59451634693,709.374029426255,-350.));
#205=CARTESIAN_POINT('Ctrl Pts',(1169.59451634693,637.724029426255,-350.));
#206=CARTESIAN_POINT('Ctrl Pts',(1241.24451634693,637.724029426255,-350.));
#207=CARTESIAN_POINT('Ctrl Pts',(1312.89451634693,637.724029426255,-350.));
#208=CARTESIAN_POINT('Ctrl Pts',(1312.89451634693,709.374029426255,-350.));
#209=CARTESIAN_POINT('',(1169.59451634693,709.374029426255,-350.));
#210=CARTESIAN_POINT('',(1312.89451634693,709.374029426255,-350.));
#211=CARTESIAN_POINT('Origin',(1241.24451634693,709.374029426255,-350.));
#212=CARTESIAN_POINT('Origin',(1312.89451634693,709.374029426255,-675.));
#213=CARTESIAN_POINT('Origin',(1241.24451634693,709.374029426255,-350.));
#214=CARTESIAN_POINT('Origin',(677.766918285966,709.374029426255,-350.));
#215=UNCERTAINTY_MEASURE_WITH_UNIT(LENGTH_MEASURE(0.01),#219,
'DISTANCE_ACCURACY_VALUE',
'Maximum model space distance between geometric entities at asserted c
onnectivities');
#216=UNCERTAINTY_MEASURE_WITH_UNIT(LENGTH_MEASURE(0.01),#219,
'DISTANCE_ACCURACY_VALUE',
'Maximum model space distance between geometric entities at asserted c
onnectivities');
#217=(
GEOMETRIC_REPRESENTATION_CONTEXT(3)
GLOBAL_UNCERTAINTY_ASSIGNED_CONTEXT((#215))
GLOBAL_UNIT_ASSIGNED_CONTEXT((#219,#221,#222))
REPRESENTATION_CONTEXT('','3D')
);
#218=(
GEOMETRIC_REPRESENTATION_CONTEXT(3)
GLOBAL_UNCERTAINTY_ASSIGNED_CONTEXT((#216))
GLOBAL_UNIT_ASSIGNED_CONTEXT((#219,#221,#222))
REPRESENTATION_CONTEXT('','3D')
);
#219=(
LENGTH_UNIT()
NAMED_UNIT(*)
SI_UNIT(.MILLI.,.METRE.)
);
#220=(
LENGTH_UNIT()
NAMED_UNIT(*)
SI_UNIT($,.METRE.)
);
#221=(
NAMED_UNIT(*)
PLANE_ANGLE_UNIT()
SI_UNIT($,.RADIAN.)
);
#222=(
NAMED_UNIT(*)
SI_UNIT($,.STERADIAN.)
SOLID_ANGLE_UNIT()
);
#223=SHAPE_DEFINITION_REPRESENTATION(#224,#225);
#224=PRODUCT_DEFINITION_SHAPE('',$,#227);
#225=SHAPE_REPRESENTATION('',(#100),#217);
#226=PRODUCT_DEFINITION_CONTEXT('part definition',#231,'design');
#227=PRODUCT_DEFINITION('dome the head','dome the head',#228,#226);
#228=PRODUCT_DEFINITION_FORMATION('',$,#233);
#229=PRODUCT_RELATED_PRODUCT_CATEGORY('dome the head','dome the head',(#233));
#230=APPLICATION_PROTOCOL_DEFINITION('international standard',
'automotive_design',2009,#231);
#231=APPLICATION_CONTEXT(
'Core Data for Automotive Mechanical Design Process');
#232=PRODUCT_CONTEXT('part definition',#231,'mechanical');
#233=PRODUCT('dome the head','dome the head',$,(#232));
#234=PRESENTATION_STYLE_ASSIGNMENT((#235));
#235=SURFACE_STYLE_USAGE(.BOTH.,#236);
#236=SURFACE_SIDE_STYLE('',(#237));
#237=SURFACE_STYLE_FILL_AREA(#238);
#238=FILL_AREA_STYLE('Steel - Satin',(#239));
#239=FILL_AREA_STYLE_COLOUR('Steel - Satin',#240);
#240=COLOUR_RGB('Steel - Satin',0.627450980392157,0.627450980392157,0.627450980392157);
ENDSEC;
END-ISO-10303-21;
